ISO-10303-21;
HEADER;
/* Generated by software containing ST-Developer
 * from STEP Tools, Inc. (www.steptools.com) 
 */
/* OPTION: using custom schema-name function */

FILE_DESCRIPTION(
/* description */ (''),
/* implementation_level */ '2;1');

FILE_NAME(
/* name */ 'RC__0803M0.stp',
/* time_stamp */ '2018-04-05T16:18:09+06:00',
/* author */ (''),
/* organization */ (''),
/* preprocessor_version */ 'ST-DEVELOPER v16',
/* originating_system */ 'SIEMENS PLM Software NX 11.0',
/* authorisation */ '');

FILE_SCHEMA (('AUTOMOTIVE_DESIGN { 1 0 10303 214 3 1 1 1 }'));
ENDSEC;

DATA;
#10=CONSTRUCTIVE_GEOMETRY_REPRESENTATION_RELATIONSHIP(
'supplemental geometry','',#32,#11);
#11=CONSTRUCTIVE_GEOMETRY_REPRESENTATION('supplemental geometry',(#79,#80),
#113);
#12=PROPERTY_DEFINITION_REPRESENTATION(#16,#14);
#13=PROPERTY_DEFINITION_REPRESENTATION(#17,#15);
#14=REPRESENTATION('',(#18),#113);
#15=REPRESENTATION('',(#19),#113);
#16=PROPERTY_DEFINITION('pmi validation property','',#23);
#17=PROPERTY_DEFINITION('pmi validation property','',#23);
#18=VALUE_REPRESENTATION_ITEM('number of annotations',COUNT_MEASURE(0.));
#19=VALUE_REPRESENTATION_ITEM('number of views',COUNT_MEASURE(0.));
#20=SHAPE_REPRESENTATION_RELATIONSHIP('None',
'relationship between RC__0803M0-None and RC__0803M0-None',#32,#21);
#21=ADVANCED_BREP_SHAPE_REPRESENTATION('RC__0803M0-None',(#38),#113);
#22=SHAPE_DEFINITION_REPRESENTATION(#23,#32);
#23=PRODUCT_DEFINITION_SHAPE('','',#24);
#24=PRODUCT_DEFINITION(' ','',#26,#25);
#25=PRODUCT_DEFINITION_CONTEXT('part definition',#31,'design');
#26=PRODUCT_DEFINITION_FORMATION_WITH_SPECIFIED_SOURCE(' ',' ',#28,
 .NOT_KNOWN.);
#27=PRODUCT_RELATED_PRODUCT_CATEGORY('part','',(#28));
#28=PRODUCT('RC__0803M0','RC__0803M0',' ',(#29));
#29=PRODUCT_CONTEXT(' ',#31,'mechanical');
#30=APPLICATION_PROTOCOL_DEFINITION('international standard',
'automotive_design',2010,#31);
#31=APPLICATION_CONTEXT(
'core data for automotive mechanical design processes');
#32=SHAPE_REPRESENTATION('RC__0803M0-None',(#78),#113);
#33=SURFACE_STYLE_USAGE(.BOTH.,#34);
#34=SURFACE_SIDE_STYLE('',(#35));
#35=SURFACE_STYLE_FILL_AREA(#36);
#36=FILL_AREA_STYLE('',(#37));
#37=FILL_AREA_STYLE_COLOUR('',#75);
#38=MANIFOLD_SOLID_BREP('CUT',#39);
#39=CLOSED_SHELL('',(#43,#44,#45));
#40=CONICAL_SURFACE('',#84,4.,7.);
#41=FACE_BOUND('',#51,.T.);
#42=FACE_BOUND('',#52,.T.);
#43=ADVANCED_FACE('',(#48),#46,.F.);
#44=ADVANCED_FACE('',(#41,#42),#40,.T.);
#45=ADVANCED_FACE('',(#49),#47,.T.);
#46=PLANE('',#82);
#47=PLANE('',#85);
#48=FACE_OUTER_BOUND('',#50,.T.);
#49=FACE_OUTER_BOUND('',#53,.T.);
#50=EDGE_LOOP('',(#54));
#51=EDGE_LOOP('',(#55));
#52=EDGE_LOOP('',(#56));
#53=EDGE_LOOP('',(#57));
#54=ORIENTED_EDGE('',*,*,#60,.F.);
#55=ORIENTED_EDGE('',*,*,#60,.T.);
#56=ORIENTED_EDGE('',*,*,#61,.F.);
#57=ORIENTED_EDGE('',*,*,#61,.T.);
#58=VERTEX_POINT('',#106);
#59=VERTEX_POINT('',#109);
#60=EDGE_CURVE('',#58,#58,#62,.T.);
#61=EDGE_CURVE('',#59,#59,#63,.T.);
#62=CIRCLE('',#81,4.);
#63=CIRCLE('',#83,3.60954509632876);
#64=PRESENTATION_LAYER_ASSIGNMENT('1','Layer 1',(#79,#80));
#65=PRESENTATION_LAYER_ASSIGNMENT('3','Layer 3',(#38));
#66=STYLED_ITEM('',(#69),#79);
#67=STYLED_ITEM('',(#70),#80);
#68=STYLED_ITEM('',(#71),#38);
#69=PRESENTATION_STYLE_ASSIGNMENT((#72));
#70=PRESENTATION_STYLE_ASSIGNMENT((#73));
#71=PRESENTATION_STYLE_ASSIGNMENT((#33));
#72=CURVE_STYLE('',#76,POSITIVE_LENGTH_MEASURE(0.18),#74);
#73=CURVE_STYLE('',#77,POSITIVE_LENGTH_MEASURE(0.18),#74);
#74=COLOUR_RGB('Strong Stone',0.576470588235294,0.54508278019379,0.392156862745098);
#75=COLOUR_RGB('Light Gray',0.8,0.8,0.8);
#76=DRAUGHTING_PRE_DEFINED_CURVE_FONT('continuous');
#77=DRAUGHTING_PRE_DEFINED_CURVE_FONT('continuous');
#78=AXIS2_PLACEMENT_3D('',#102,#86,#87);
#79=AXIS2_PLACEMENT_3D('MCS',#103,#88,#89);
#80=AXIS2_PLACEMENT_3D('PCS',#104,#90,#91);
#81=AXIS2_PLACEMENT_3D('',#105,#92,#93);
#82=AXIS2_PLACEMENT_3D('',#107,#94,#95);
#83=AXIS2_PLACEMENT_3D('',#108,#96,#97);
#84=AXIS2_PLACEMENT_3D('',#110,#98,#99);
#85=AXIS2_PLACEMENT_3D('',#111,#100,#101);
#86=DIRECTION('',(0.,0.,1.));
#87=DIRECTION('',(1.,0.,0.));
#88=DIRECTION('',(0.,0.,1.));
#89=DIRECTION('',(1.,0.,0.));
#90=DIRECTION('',(0.,0.,1.));
#91=DIRECTION('',(1.,0.,0.));
#92=DIRECTION('',(0.,0.,-1.));
#93=DIRECTION('',(-1.,0.,0.));
#94=DIRECTION('',(0.,0.,-1.));
#95=DIRECTION('',(1.,0.,0.));
#96=DIRECTION('',(0.,0.,-1.));
#97=DIRECTION('',(-1.,0.,0.));
#98=DIRECTION('',(0.,0.,1.));
#99=DIRECTION('',(1.,0.,0.));
#100=DIRECTION('',(0.,0.,-1.));
#101=DIRECTION('',(1.,0.,0.));
#102=CARTESIAN_POINT('',(0.,0.,0.));
#103=CARTESIAN_POINT('',(0.,0.,0.));
#104=CARTESIAN_POINT('',(-4.,-4.,0.));
#105=CARTESIAN_POINT('',(0.,0.,0.));
#106=CARTESIAN_POINT('',(-4.,0.,0.));
#107=CARTESIAN_POINT('',(0.,0.,0.));
#108=CARTESIAN_POINT('',(0.,0.,-3.18));
#109=CARTESIAN_POINT('',(-3.60954509632876,0.,-3.18));
#110=CARTESIAN_POINT('',(0.,0.,0.));
#111=CARTESIAN_POINT('',(0.,0.,-3.18));
#112=MECHANICAL_DESIGN_GEOMETRIC_PRESENTATION_REPRESENTATION('',(#66,#67,
#68),#113);
#113=(
GEOMETRIC_REPRESENTATION_CONTEXT(3)
GLOBAL_UNCERTAINTY_ASSIGNED_CONTEXT((#114))
GLOBAL_UNIT_ASSIGNED_CONTEXT((#120,#116,#115))
REPRESENTATION_CONTEXT('RC__0803M0','TOP_LEVEL_ASSEMBLY_PART')
);
#114=UNCERTAINTY_MEASURE_WITH_UNIT(LENGTH_MEASURE(2.E-5),#120,
'DISTANCE_ACCURACY_VALUE','Maximum Tolerance applied to model');
#115=(
NAMED_UNIT(*)
SI_UNIT($,.STERADIAN.)
SOLID_ANGLE_UNIT()
);
#116=(
CONVERSION_BASED_UNIT('DEGREE',#118)
NAMED_UNIT(#117)
PLANE_ANGLE_UNIT()
);
#117=DIMENSIONAL_EXPONENTS(0.,0.,0.,0.,0.,0.,0.);
#118=PLANE_ANGLE_MEASURE_WITH_UNIT(PLANE_ANGLE_MEASURE(0.0174532925),#119);
#119=(
NAMED_UNIT(*)
PLANE_ANGLE_UNIT()
SI_UNIT($,.RADIAN.)
);
#120=(
LENGTH_UNIT()
NAMED_UNIT(*)
SI_UNIT(.MILLI.,.METRE.)
);
ENDSEC;
END-ISO-10303-21;
