ISO-10303-21;
HEADER;
/* Generated by software containing ST-Developer
 * from STEP Tools, Inc. (www.steptools.com) 
 */
/* OPTION: using custom schema-name function */

FILE_DESCRIPTION(
/* description */ (''),
/* implementation_level */ '2;1');

FILE_NAME(
/* name */ 'SEKR1604AFTN-ME16.stp',
/* time_stamp */ '2012-07-10T14:54:17+05:00',
/* author */ (''),
/* organization */ (''),
/* preprocessor_version */ 'ST-DEVELOPER v11',
/* originating_system */ 'SIEMENS PLM Software NX 7.5',
/* authorisation */ '');

FILE_SCHEMA (('AUTOMOTIVE_DESIGN { 1 0 10303 214 1 1 1 1 }'));
ENDSEC;

DATA;
#10=SHAPE_REPRESENTATION_RELATIONSHIP('None',
'relationship between inpu0AEFxqk2-None and inpu0AEFxqk2-None',#22,#11);
#11=ADVANCED_BREP_SHAPE_REPRESENTATION('inpu0AEFxqk2-None',(#32),#599);
#12=SHAPE_DEFINITION_REPRESENTATION(#13,#22);
#13=PRODUCT_DEFINITION_SHAPE('','',#14);
#14=PRODUCT_DEFINITION(' ','',#16,#15);
#15=PRODUCT_DEFINITION_CONTEXT('part definition',#21,'design');
#16=PRODUCT_DEFINITION_FORMATION_WITH_SPECIFIED_SOURCE(' ',' ',#18,.NOT_KNOWN.);
#17=PRODUCT_RELATED_PRODUCT_CATEGORY('part','',(#18));
#18=PRODUCT('inpu0AEFxqk2','inpu0AEFxqk2',' ',(#19));
#19=PRODUCT_CONTEXT(' ',#21,'mechanical');
#20=APPLICATION_PROTOCOL_DEFINITION('international standard',
'automotive_design',2001,#21);
#21=APPLICATION_CONTEXT(
'core data for automotive mechanical design processes');
#22=SHAPE_REPRESENTATION('inpu0AEFxqk2-None',(#362),#599);
#23=PRESENTATION_LAYER_ASSIGNMENT('3','Layer 3',(#32));
#24=STYLED_ITEM('',(#25),#32);
#25=PRESENTATION_STYLE_ASSIGNMENT((#26));
#26=SURFACE_STYLE_USAGE(.BOTH.,#27);
#27=SURFACE_SIDE_STYLE('',(#28));
#28=SURFACE_STYLE_FILL_AREA(#29);
#29=FILL_AREA_STYLE('',(#30));
#30=FILL_AREA_STYLE_COLOUR('',#31);
#31=COLOUR_RGB('Light Gray',0.8,0.8,0.8);
#32=MANIFOLD_SOLID_BREP('',#33);
#33=CLOSED_SHELL('',(#58,#59,#60,#61,#62,#63,#64,#65,#66,#67,#68,#69,#70,
#71,#72,#73,#74,#75));
#34=CYLINDRICAL_SURFACE('',#389,1.);
#35=CYLINDRICAL_SURFACE('',#390,1.);
#36=CYLINDRICAL_SURFACE('',#391,1.);
#37=CYLINDRICAL_SURFACE('',#392,1.);
#38=CYLINDRICAL_SURFACE('',#393,1.);
#39=CYLINDRICAL_SURFACE('',#394,1.);
#40=CYLINDRICAL_SURFACE('',#395,1.);
#41=CYLINDRICAL_SURFACE('',#396,1.);
#42=ELLIPSE('',#367,1.11292947971283,1.);
#43=ELLIPSE('',#368,1.11292947971283,1.);
#44=ELLIPSE('',#369,1.11292947971283,1.);
#45=ELLIPSE('',#370,1.11292947971283,1.);
#46=ELLIPSE('',#371,1.11292947971283,1.);
#47=ELLIPSE('',#372,1.11292947971283,1.);
#48=ELLIPSE('',#373,1.11292947971283,1.);
#49=ELLIPSE('',#374,1.11292947971283,1.);
#50=ELLIPSE('',#376,1.11292947971283,1.);
#51=ELLIPSE('',#377,1.11292947971283,1.);
#52=ELLIPSE('',#378,1.11292947971283,1.);
#53=ELLIPSE('',#379,1.11292947971283,1.);
#54=ELLIPSE('',#380,1.11292947971283,1.);
#55=ELLIPSE('',#381,1.11292947971283,1.);
#56=ELLIPSE('',#382,1.11292947971283,1.);
#57=ELLIPSE('',#383,1.11292947971283,1.);
#58=ADVANCED_FACE('',(#86),#76,.T.);
#59=ADVANCED_FACE('',(#87),#77,.T.);
#60=ADVANCED_FACE('',(#88),#78,.T.);
#61=ADVANCED_FACE('',(#89),#79,.T.);
#62=ADVANCED_FACE('',(#90),#80,.F.);
#63=ADVANCED_FACE('',(#91),#81,.T.);
#64=ADVANCED_FACE('',(#92),#82,.T.);
#65=ADVANCED_FACE('',(#93),#83,.T.);
#66=ADVANCED_FACE('',(#94),#84,.T.);
#67=ADVANCED_FACE('',(#95),#85,.T.);
#68=ADVANCED_FACE('',(#96),#34,.T.);
#69=ADVANCED_FACE('',(#97),#35,.T.);
#70=ADVANCED_FACE('',(#98),#36,.T.);
#71=ADVANCED_FACE('',(#99),#37,.T.);
#72=ADVANCED_FACE('',(#100),#38,.T.);
#73=ADVANCED_FACE('',(#101),#39,.T.);
#74=ADVANCED_FACE('',(#102),#40,.T.);
#75=ADVANCED_FACE('',(#103),#41,.T.);
#76=PLANE('',#363);
#77=PLANE('',#364);
#78=PLANE('',#365);
#79=PLANE('',#366);
#80=PLANE('',#375);
#81=PLANE('',#384);
#82=PLANE('',#385);
#83=PLANE('',#386);
#84=PLANE('',#387);
#85=PLANE('',#388);
#86=FACE_OUTER_BOUND('',#104,.T.);
#87=FACE_OUTER_BOUND('',#105,.T.);
#88=FACE_OUTER_BOUND('',#106,.T.);
#89=FACE_OUTER_BOUND('',#107,.T.);
#90=FACE_OUTER_BOUND('',#108,.T.);
#91=FACE_OUTER_BOUND('',#109,.T.);
#92=FACE_OUTER_BOUND('',#110,.T.);
#93=FACE_OUTER_BOUND('',#111,.T.);
#94=FACE_OUTER_BOUND('',#112,.T.);
#95=FACE_OUTER_BOUND('',#113,.T.);
#96=FACE_OUTER_BOUND('',#114,.T.);
#97=FACE_OUTER_BOUND('',#115,.T.);
#98=FACE_OUTER_BOUND('',#116,.T.);
#99=FACE_OUTER_BOUND('',#117,.T.);
#100=FACE_OUTER_BOUND('',#118,.T.);
#101=FACE_OUTER_BOUND('',#119,.T.);
#102=FACE_OUTER_BOUND('',#120,.T.);
#103=FACE_OUTER_BOUND('',#121,.T.);
#104=EDGE_LOOP('',(#122,#123,#124,#125));
#105=EDGE_LOOP('',(#126,#127,#128,#129));
#106=EDGE_LOOP('',(#130,#131,#132,#133));
#107=EDGE_LOOP('',(#134,#135,#136,#137));
#108=EDGE_LOOP('',(#138,#139,#140,#141,#142,#143,#144,#145,#146,#147,#148,
#149,#150,#151,#152,#153));
#109=EDGE_LOOP('',(#154,#155,#156,#157,#158,#159,#160,#161,#162,#163,#164,
#165,#166,#167,#168,#169));
#110=EDGE_LOOP('',(#170,#171,#172,#173));
#111=EDGE_LOOP('',(#174,#175,#176,#177));
#112=EDGE_LOOP('',(#178,#179,#180,#181));
#113=EDGE_LOOP('',(#182,#183,#184,#185));
#114=EDGE_LOOP('',(#186,#187,#188,#189));
#115=EDGE_LOOP('',(#190,#191,#192,#193));
#116=EDGE_LOOP('',(#194,#195,#196,#197));
#117=EDGE_LOOP('',(#198,#199,#200,#201));
#118=EDGE_LOOP('',(#202,#203,#204,#205));
#119=EDGE_LOOP('',(#206,#207,#208,#209));
#120=EDGE_LOOP('',(#210,#211,#212,#213));
#121=EDGE_LOOP('',(#214,#215,#216,#217));
#122=ORIENTED_EDGE('',*,*,#250,.T.);
#123=ORIENTED_EDGE('',*,*,#251,.T.);
#124=ORIENTED_EDGE('',*,*,#252,.F.);
#125=ORIENTED_EDGE('',*,*,#253,.T.);
#126=ORIENTED_EDGE('',*,*,#254,.T.);
#127=ORIENTED_EDGE('',*,*,#255,.T.);
#128=ORIENTED_EDGE('',*,*,#256,.F.);
#129=ORIENTED_EDGE('',*,*,#257,.T.);
#130=ORIENTED_EDGE('',*,*,#258,.T.);
#131=ORIENTED_EDGE('',*,*,#259,.T.);
#132=ORIENTED_EDGE('',*,*,#260,.F.);
#133=ORIENTED_EDGE('',*,*,#261,.T.);
#134=ORIENTED_EDGE('',*,*,#262,.F.);
#135=ORIENTED_EDGE('',*,*,#263,.T.);
#136=ORIENTED_EDGE('',*,*,#264,.T.);
#137=ORIENTED_EDGE('',*,*,#265,.T.);
#138=ORIENTED_EDGE('',*,*,#264,.F.);
#139=ORIENTED_EDGE('',*,*,#266,.T.);
#140=ORIENTED_EDGE('',*,*,#267,.F.);
#141=ORIENTED_EDGE('',*,*,#268,.T.);
#142=ORIENTED_EDGE('',*,*,#258,.F.);
#143=ORIENTED_EDGE('',*,*,#269,.T.);
#144=ORIENTED_EDGE('',*,*,#270,.F.);
#145=ORIENTED_EDGE('',*,*,#271,.T.);
#146=ORIENTED_EDGE('',*,*,#254,.F.);
#147=ORIENTED_EDGE('',*,*,#272,.T.);
#148=ORIENTED_EDGE('',*,*,#273,.F.);
#149=ORIENTED_EDGE('',*,*,#274,.T.);
#150=ORIENTED_EDGE('',*,*,#250,.F.);
#151=ORIENTED_EDGE('',*,*,#275,.T.);
#152=ORIENTED_EDGE('',*,*,#276,.F.);
#153=ORIENTED_EDGE('',*,*,#277,.T.);
#154=ORIENTED_EDGE('',*,*,#278,.T.);
#155=ORIENTED_EDGE('',*,*,#279,.T.);
#156=ORIENTED_EDGE('',*,*,#262,.T.);
#157=ORIENTED_EDGE('',*,*,#280,.T.);
#158=ORIENTED_EDGE('',*,*,#281,.T.);
#159=ORIENTED_EDGE('',*,*,#282,.T.);
#160=ORIENTED_EDGE('',*,*,#252,.T.);
#161=ORIENTED_EDGE('',*,*,#283,.T.);
#162=ORIENTED_EDGE('',*,*,#284,.T.);
#163=ORIENTED_EDGE('',*,*,#285,.T.);
#164=ORIENTED_EDGE('',*,*,#256,.T.);
#165=ORIENTED_EDGE('',*,*,#286,.T.);
#166=ORIENTED_EDGE('',*,*,#287,.T.);
#167=ORIENTED_EDGE('',*,*,#288,.T.);
#168=ORIENTED_EDGE('',*,*,#260,.T.);
#169=ORIENTED_EDGE('',*,*,#289,.T.);
#170=ORIENTED_EDGE('',*,*,#276,.T.);
#171=ORIENTED_EDGE('',*,*,#290,.T.);
#172=ORIENTED_EDGE('',*,*,#281,.F.);
#173=ORIENTED_EDGE('',*,*,#291,.T.);
#174=ORIENTED_EDGE('',*,*,#267,.T.);
#175=ORIENTED_EDGE('',*,*,#292,.T.);
#176=ORIENTED_EDGE('',*,*,#278,.F.);
#177=ORIENTED_EDGE('',*,*,#293,.T.);
#178=ORIENTED_EDGE('',*,*,#270,.T.);
#179=ORIENTED_EDGE('',*,*,#294,.T.);
#180=ORIENTED_EDGE('',*,*,#287,.F.);
#181=ORIENTED_EDGE('',*,*,#295,.T.);
#182=ORIENTED_EDGE('',*,*,#273,.T.);
#183=ORIENTED_EDGE('',*,*,#296,.T.);
#184=ORIENTED_EDGE('',*,*,#284,.F.);
#185=ORIENTED_EDGE('',*,*,#297,.T.);
#186=ORIENTED_EDGE('',*,*,#279,.F.);
#187=ORIENTED_EDGE('',*,*,#292,.F.);
#188=ORIENTED_EDGE('',*,*,#266,.F.);
#189=ORIENTED_EDGE('',*,*,#263,.F.);
#190=ORIENTED_EDGE('',*,*,#268,.F.);
#191=ORIENTED_EDGE('',*,*,#293,.F.);
#192=ORIENTED_EDGE('',*,*,#289,.F.);
#193=ORIENTED_EDGE('',*,*,#259,.F.);
#194=ORIENTED_EDGE('',*,*,#288,.F.);
#195=ORIENTED_EDGE('',*,*,#294,.F.);
#196=ORIENTED_EDGE('',*,*,#269,.F.);
#197=ORIENTED_EDGE('',*,*,#261,.F.);
#198=ORIENTED_EDGE('',*,*,#271,.F.);
#199=ORIENTED_EDGE('',*,*,#295,.F.);
#200=ORIENTED_EDGE('',*,*,#286,.F.);
#201=ORIENTED_EDGE('',*,*,#255,.F.);
#202=ORIENTED_EDGE('',*,*,#285,.F.);
#203=ORIENTED_EDGE('',*,*,#296,.F.);
#204=ORIENTED_EDGE('',*,*,#272,.F.);
#205=ORIENTED_EDGE('',*,*,#257,.F.);
#206=ORIENTED_EDGE('',*,*,#274,.F.);
#207=ORIENTED_EDGE('',*,*,#297,.F.);
#208=ORIENTED_EDGE('',*,*,#283,.F.);
#209=ORIENTED_EDGE('',*,*,#251,.F.);
#210=ORIENTED_EDGE('',*,*,#282,.F.);
#211=ORIENTED_EDGE('',*,*,#290,.F.);
#212=ORIENTED_EDGE('',*,*,#275,.F.);
#213=ORIENTED_EDGE('',*,*,#253,.F.);
#214=ORIENTED_EDGE('',*,*,#277,.F.);
#215=ORIENTED_EDGE('',*,*,#291,.F.);
#216=ORIENTED_EDGE('',*,*,#280,.F.);
#217=ORIENTED_EDGE('',*,*,#265,.F.);
#218=VERTEX_POINT('',#501);
#219=VERTEX_POINT('',#502);
#220=VERTEX_POINT('',#504);
#221=VERTEX_POINT('',#506);
#222=VERTEX_POINT('',#510);
#223=VERTEX_POINT('',#511);
#224=VERTEX_POINT('',#513);
#225=VERTEX_POINT('',#515);
#226=VERTEX_POINT('',#519);
#227=VERTEX_POINT('',#520);
#228=VERTEX_POINT('',#522);
#229=VERTEX_POINT('',#524);
#230=VERTEX_POINT('',#528);
#231=VERTEX_POINT('',#529);
#232=VERTEX_POINT('',#531);
#233=VERTEX_POINT('',#533);
#234=VERTEX_POINT('',#537);
#235=VERTEX_POINT('',#539);
#236=VERTEX_POINT('',#542);
#237=VERTEX_POINT('',#544);
#238=VERTEX_POINT('',#547);
#239=VERTEX_POINT('',#549);
#240=VERTEX_POINT('',#552);
#241=VERTEX_POINT('',#554);
#242=VERTEX_POINT('',#558);
#243=VERTEX_POINT('',#559);
#244=VERTEX_POINT('',#562);
#245=VERTEX_POINT('',#564);
#246=VERTEX_POINT('',#567);
#247=VERTEX_POINT('',#569);
#248=VERTEX_POINT('',#572);
#249=VERTEX_POINT('',#574);
#250=EDGE_CURVE('',#218,#219,#298,.T.);
#251=EDGE_CURVE('',#219,#220,#299,.T.);
#252=EDGE_CURVE('',#221,#220,#300,.T.);
#253=EDGE_CURVE('',#221,#218,#301,.T.);
#254=EDGE_CURVE('',#222,#223,#302,.T.);
#255=EDGE_CURVE('',#223,#224,#303,.T.);
#256=EDGE_CURVE('',#225,#224,#304,.T.);
#257=EDGE_CURVE('',#225,#222,#305,.T.);
#258=EDGE_CURVE('',#226,#227,#306,.T.);
#259=EDGE_CURVE('',#227,#228,#307,.T.);
#260=EDGE_CURVE('',#229,#228,#308,.T.);
#261=EDGE_CURVE('',#229,#226,#309,.T.);
#262=EDGE_CURVE('',#230,#231,#310,.T.);
#263=EDGE_CURVE('',#230,#232,#311,.T.);
#264=EDGE_CURVE('',#232,#233,#312,.T.);
#265=EDGE_CURVE('',#233,#231,#313,.T.);
#266=EDGE_CURVE('',#232,#234,#42,.T.);
#267=EDGE_CURVE('',#235,#234,#314,.T.);
#268=EDGE_CURVE('',#235,#227,#43,.T.);
#269=EDGE_CURVE('',#226,#236,#44,.T.);
#270=EDGE_CURVE('',#237,#236,#315,.T.);
#271=EDGE_CURVE('',#237,#223,#45,.T.);
#272=EDGE_CURVE('',#222,#238,#46,.T.);
#273=EDGE_CURVE('',#239,#238,#316,.T.);
#274=EDGE_CURVE('',#239,#219,#47,.T.);
#275=EDGE_CURVE('',#218,#240,#48,.T.);
#276=EDGE_CURVE('',#241,#240,#317,.T.);
#277=EDGE_CURVE('',#241,#233,#49,.T.);
#278=EDGE_CURVE('',#242,#243,#318,.T.);
#279=EDGE_CURVE('',#243,#230,#50,.T.);
#280=EDGE_CURVE('',#231,#244,#51,.T.);
#281=EDGE_CURVE('',#244,#245,#319,.T.);
#282=EDGE_CURVE('',#245,#221,#52,.T.);
#283=EDGE_CURVE('',#220,#246,#53,.T.);
#284=EDGE_CURVE('',#246,#247,#320,.T.);
#285=EDGE_CURVE('',#247,#225,#54,.T.);
#286=EDGE_CURVE('',#224,#248,#55,.T.);
#287=EDGE_CURVE('',#248,#249,#321,.T.);
#288=EDGE_CURVE('',#249,#229,#56,.T.);
#289=EDGE_CURVE('',#228,#242,#57,.T.);
#290=EDGE_CURVE('',#240,#245,#322,.T.);
#291=EDGE_CURVE('',#244,#241,#323,.T.);
#292=EDGE_CURVE('',#234,#243,#324,.T.);
#293=EDGE_CURVE('',#242,#235,#325,.T.);
#294=EDGE_CURVE('',#236,#249,#326,.T.);
#295=EDGE_CURVE('',#248,#237,#327,.T.);
#296=EDGE_CURVE('',#238,#247,#328,.T.);
#297=EDGE_CURVE('',#246,#239,#329,.T.);
#298=LINE('',#500,#330);
#299=LINE('',#503,#331);
#300=LINE('',#505,#332);
#301=LINE('',#507,#333);
#302=LINE('',#509,#334);
#303=LINE('',#512,#335);
#304=LINE('',#514,#336);
#305=LINE('',#516,#337);
#306=LINE('',#518,#338);
#307=LINE('',#521,#339);
#308=LINE('',#523,#340);
#309=LINE('',#525,#341);
#310=LINE('',#527,#342);
#311=LINE('',#530,#343);
#312=LINE('',#532,#344);
#313=LINE('',#534,#345);
#314=LINE('',#538,#346);
#315=LINE('',#543,#347);
#316=LINE('',#548,#348);
#317=LINE('',#553,#349);
#318=LINE('',#557,#350);
#319=LINE('',#563,#351);
#320=LINE('',#568,#352);
#321=LINE('',#573,#353);
#322=LINE('',#578,#354);
#323=LINE('',#579,#355);
#324=LINE('',#581,#356);
#325=LINE('',#582,#357);
#326=LINE('',#584,#358);
#327=LINE('',#585,#359);
#328=LINE('',#587,#360);
#329=LINE('',#588,#361);
#330=VECTOR('',#399,1.);
#331=VECTOR('',#400,1.);
#332=VECTOR('',#401,1.);
#333=VECTOR('',#402,1.);
#334=VECTOR('',#405,1.);
#335=VECTOR('',#406,1.);
#336=VECTOR('',#407,1.);
#337=VECTOR('',#408,1.);
#338=VECTOR('',#411,1.);
#339=VECTOR('',#412,1.);
#340=VECTOR('',#413,1.);
#341=VECTOR('',#414,1.);
#342=VECTOR('',#417,1.);
#343=VECTOR('',#418,1.);
#344=VECTOR('',#419,1.);
#345=VECTOR('',#420,1.);
#346=VECTOR('',#425,1.);
#347=VECTOR('',#430,1.);
#348=VECTOR('',#435,1.);
#349=VECTOR('',#440,1.);
#350=VECTOR('',#445,1.);
#351=VECTOR('',#450,1.);
#352=VECTOR('',#455,1.);
#353=VECTOR('',#460,1.);
#354=VECTOR('',#467,1.);
#355=VECTOR('',#468,1.);
#356=VECTOR('',#471,1.);
#357=VECTOR('',#472,1.);
#358=VECTOR('',#475,1.);
#359=VECTOR('',#476,1.);
#360=VECTOR('',#479,1.);
#361=VECTOR('',#480,1.);
#362=AXIS2_PLACEMENT_3D('',#499,#397,#398);
#363=AXIS2_PLACEMENT_3D('',#508,#403,#404);
#364=AXIS2_PLACEMENT_3D('',#517,#409,#410);
#365=AXIS2_PLACEMENT_3D('',#526,#415,#416);
#366=AXIS2_PLACEMENT_3D('',#535,#421,#422);
#367=AXIS2_PLACEMENT_3D('',#536,#423,#424);
#368=AXIS2_PLACEMENT_3D('',#540,#426,#427);
#369=AXIS2_PLACEMENT_3D('',#541,#428,#429);
#370=AXIS2_PLACEMENT_3D('',#545,#431,#432);
#371=AXIS2_PLACEMENT_3D('',#546,#433,#434);
#372=AXIS2_PLACEMENT_3D('',#550,#436,#437);
#373=AXIS2_PLACEMENT_3D('',#551,#438,#439);
#374=AXIS2_PLACEMENT_3D('',#555,#441,#442);
#375=AXIS2_PLACEMENT_3D('',#556,#443,#444);
#376=AXIS2_PLACEMENT_3D('',#560,#446,#447);
#377=AXIS2_PLACEMENT_3D('',#561,#448,#449);
#378=AXIS2_PLACEMENT_3D('',#565,#451,#452);
#379=AXIS2_PLACEMENT_3D('',#566,#453,#454);
#380=AXIS2_PLACEMENT_3D('',#570,#456,#457);
#381=AXIS2_PLACEMENT_3D('',#571,#458,#459);
#382=AXIS2_PLACEMENT_3D('',#575,#461,#462);
#383=AXIS2_PLACEMENT_3D('',#576,#463,#464);
#384=AXIS2_PLACEMENT_3D('',#577,#465,#466);
#385=AXIS2_PLACEMENT_3D('',#580,#469,#470);
#386=AXIS2_PLACEMENT_3D('',#583,#473,#474);
#387=AXIS2_PLACEMENT_3D('',#586,#477,#478);
#388=AXIS2_PLACEMENT_3D('',#589,#481,#482);
#389=AXIS2_PLACEMENT_3D('',#590,#483,#484);
#390=AXIS2_PLACEMENT_3D('',#591,#485,#486);
#391=AXIS2_PLACEMENT_3D('',#592,#487,#488);
#392=AXIS2_PLACEMENT_3D('',#593,#489,#490);
#393=AXIS2_PLACEMENT_3D('',#594,#491,#492);
#394=AXIS2_PLACEMENT_3D('',#595,#493,#494);
#395=AXIS2_PLACEMENT_3D('',#596,#495,#496);
#396=AXIS2_PLACEMENT_3D('',#597,#497,#498);
#397=DIRECTION('',(0.,0.,1.));
#398=DIRECTION('',(1.,0.,0.));
#399=DIRECTION('',(-6.19544098563145E-016,1.,0.));
#400=DIRECTION('',(0.327038002767362,0.292729964686567,0.898529527906866));
#401=DIRECTION('',(-6.19544098563145E-016,1.,0.));
#402=DIRECTION('',(-0.327038002767362,0.292729964686567,-0.898529527906866));
#403=DIRECTION('',(0.939692620785908,5.82181017671245E-016,-0.342020143325668));
#404=DIRECTION('',(-0.342020143325668,0.,-0.939692620785909));
#405=DIRECTION('',(-1.,-1.03257349760524E-016,0.));
#406=DIRECTION('',(-0.292729964686567,0.327038002767362,0.898529527906866));
#407=DIRECTION('',(-1.,-1.03257349760524E-016,0.));
#408=DIRECTION('',(-0.292729964686567,-0.327038002767362,-0.898529527906866));
#409=DIRECTION('',(-9.70301696118742E-017,0.939692620785908,-0.342020143325668));
#410=DIRECTION('',(0.,0.342020143325668,0.939692620785909));
#411=DIRECTION('',(2.06514699521048E-016,-1.,0.));
#412=DIRECTION('',(-0.327038002767362,-0.292729964686567,0.898529527906866));
#413=DIRECTION('',(2.06514699521048E-016,-1.,0.));
#414=DIRECTION('',(0.327038002767362,-0.292729964686567,-0.898529527906866));
#415=DIRECTION('',(-0.939692620785908,-1.94060339223748E-016,-0.342020143325668));
#416=DIRECTION('',(-0.342020143325668,0.,0.939692620785909));
#417=DIRECTION('',(1.,4.13029399042097E-016,0.));
#418=DIRECTION('',(0.292729964686567,0.327038002767362,-0.898529527906866));
#419=DIRECTION('',(1.,4.13029399042097E-016,0.));
#420=DIRECTION('',(0.292729964686567,-0.327038002767362,0.898529527906866));
#421=DIRECTION('',(3.88120678447497E-016,-0.939692620785908,-0.342020143325668));
#422=DIRECTION('',(0.,0.342020143325668,-0.939692620785909));
#423=DIRECTION('',(0.,0.,-1.));
#424=DIRECTION('',(0.666942912627331,0.745108818425989,0.));
#425=DIRECTION('',(0.707106781186548,-0.707106781186547,0.));
#426=DIRECTION('',(0.,0.,-1.));
#427=DIRECTION('',(-0.745108818425988,-0.666942912627331,0.));
#428=DIRECTION('',(0.,0.,-1.));
#429=DIRECTION('',(0.745108818425989,-0.666942912627331,0.));
#430=DIRECTION('',(-0.707106781186547,-0.707106781186548,0.));
#431=DIRECTION('',(0.,0.,-1.));
#432=DIRECTION('',(-0.666942912627331,0.745108818425988,0.));
#433=DIRECTION('',(0.,0.,-1.));
#434=DIRECTION('',(-0.666942912627331,-0.745108818425989,0.));
#435=DIRECTION('',(-0.707106781186548,0.707106781186547,0.));
#436=DIRECTION('',(0.,0.,-1.));
#437=DIRECTION('',(0.745108818425988,0.666942912627331,0.));
#438=DIRECTION('',(0.,0.,-1.));
#439=DIRECTION('',(-0.745108818425989,0.66694291262733,0.));
#440=DIRECTION('',(0.707106781186547,0.707106781186548,0.));
#441=DIRECTION('',(0.,0.,-1.));
#442=DIRECTION('',(0.666942912627331,-0.745108818425988,0.));
#443=DIRECTION('',(0.,0.,1.));
#444=DIRECTION('',(1.,0.,0.));
#445=DIRECTION('',(0.707106781186548,-0.707106781186547,0.));
#446=DIRECTION('',(0.,0.,1.));
#447=DIRECTION('',(0.666942912627331,0.745108818425989,0.));
#448=DIRECTION('',(0.,0.,1.));
#449=DIRECTION('',(0.666942912627331,-0.745108818425988,0.));
#450=DIRECTION('',(0.707106781186547,0.707106781186548,0.));
#451=DIRECTION('',(0.,0.,1.));
#452=DIRECTION('',(-0.745108818425989,0.66694291262733,0.));
#453=DIRECTION('',(0.,0.,1.));
#454=DIRECTION('',(0.745108818425988,0.666942912627331,0.));
#455=DIRECTION('',(-0.707106781186548,0.707106781186547,0.));
#456=DIRECTION('',(0.,0.,1.));
#457=DIRECTION('',(-0.666942912627331,-0.745108818425989,0.));
#458=DIRECTION('',(0.,0.,1.));
#459=DIRECTION('',(-0.666942912627331,0.745108818425988,0.));
#460=DIRECTION('',(-0.707106781186547,-0.707106781186548,0.));
#461=DIRECTION('',(0.,0.,1.));
#462=DIRECTION('',(0.745108818425989,-0.666942912627331,0.));
#463=DIRECTION('',(0.,0.,1.));
#464=DIRECTION('',(-0.745108818425988,-0.666942912627331,0.));
#465=DIRECTION('',(0.,0.,1.));
#466=DIRECTION('',(1.,0.,0.));
#467=DIRECTION('',(0.327038002767362,-0.292729964686567,0.898529527906866));
#468=DIRECTION('',(-0.292729964686567,0.327038002767362,-0.898529527906866));
#469=DIRECTION('',(0.635543365028237,-0.635543365028237,-0.438371146789077));
#470=DIRECTION('',(0.707106781186547,0.707106781186548,0.));
#471=DIRECTION('',(-0.292729964686567,-0.327038002767362,0.898529527906866));
#472=DIRECTION('',(0.327038002767362,0.292729964686567,-0.898529527906866));
#473=DIRECTION('',(-0.635543365028237,-0.635543365028237,-0.438371146789077));
#474=DIRECTION('',(0.707106781186548,-0.707106781186547,0.));
#475=DIRECTION('',(-0.327038002767362,0.292729964686567,0.898529527906866));
#476=DIRECTION('',(0.292729964686567,-0.327038002767362,-0.898529527906866));
#477=DIRECTION('',(-0.635543365028237,0.635543365028237,-0.438371146789077));
#478=DIRECTION('',(-0.707106781186547,-0.707106781186548,0.));
#479=DIRECTION('',(0.292729964686567,0.327038002767362,0.898529527906866));
#480=DIRECTION('',(-0.327038002767362,-0.292729964686567,-0.898529527906866));
#481=DIRECTION('',(0.635543365028237,0.635543365028237,-0.438371146789077));
#482=DIRECTION('',(-0.707106781186548,0.707106781186547,0.));
#483=DIRECTION('',(0.292729964686567,0.327038002767362,-0.898529527906866));
#484=DIRECTION('',(0.,0.939692620785909,0.342020143325669));
#485=DIRECTION('',(-0.327038002767362,-0.292729964686567,0.898529527906866));
#486=DIRECTION('',(0.939692620785909,0.,0.342020143325668));
#487=DIRECTION('',(0.327038002767362,-0.292729964686567,-0.898529527906866));
#488=DIRECTION('',(-0.939692620785908,0.,-0.342020143325669));
#489=DIRECTION('',(-0.292729964686567,0.327038002767362,0.898529527906866));
#490=DIRECTION('',(0.,-0.939692620785909,0.342020143325668));
#491=DIRECTION('',(-0.292729964686567,-0.327038002767362,-0.898529527906866));
#492=DIRECTION('',(0.,0.939692620785908,-0.342020143325669));
#493=DIRECTION('',(0.327038002767362,0.292729964686567,0.898529527906866));
#494=DIRECTION('',(0.939692620785909,0.,-0.342020143325668));
#495=DIRECTION('',(-0.327038002767362,0.292729964686567,-0.898529527906866));
#496=DIRECTION('',(-0.939692620785909,0.,0.342020143325669));
#497=DIRECTION('',(0.292729964686567,-0.327038002767362,0.898529527906866));
#498=DIRECTION('',(0.,-0.939692620785909,-0.342020143325668));
#499=CARTESIAN_POINT('',(0.,0.,0.));
#500=CARTESIAN_POINT('',(6.65767448856769,8.4,-4.787));
#501=CARTESIAN_POINT('',(6.6576744885677,-2.97156360312343,-4.787));
#502=CARTESIAN_POINT('',(6.6576744885677,2.97156360312343,-4.787));
#503=CARTESIAN_POINT('',(7.16205541968889,3.42303227314437,-3.40122478094102));
#504=CARTESIAN_POINT('',(8.4,4.53110983664447,0.));
#505=CARTESIAN_POINT('',(8.40000000000001,-8.4,0.));
#506=CARTESIAN_POINT('',(8.40000000000001,-4.53110983664448,0.));
#507=CARTESIAN_POINT('',(8.77038364610999,-4.86263825453107,1.01762070422243));
#508=CARTESIAN_POINT('',(8.40000000000001,-8.4,0.));
#509=CARTESIAN_POINT('',(8.4,6.65767448856769,-4.787));
#510=CARTESIAN_POINT('',(2.97156360312343,6.65767448856769,-4.787));
#511=CARTESIAN_POINT('',(-2.97156360312342,6.65767448856769,-4.787));
#512=CARTESIAN_POINT('',(-3.42303227314436,7.16205541968889,-3.40122478094102));
#513=CARTESIAN_POINT('',(-4.53110983664447,8.4,0.));
#514=CARTESIAN_POINT('',(8.4,8.4,0.));
#515=CARTESIAN_POINT('',(4.53110983664448,8.4,0.));
#516=CARTESIAN_POINT('',(4.86263825453107,8.77038364610998,1.01762070422243));
#517=CARTESIAN_POINT('',(8.4,8.4,0.));
#518=CARTESIAN_POINT('',(-6.65767448856769,8.4,-4.787));
#519=CARTESIAN_POINT('',(-6.65767448856769,2.97156360312342,-4.787));
#520=CARTESIAN_POINT('',(-6.65767448856769,-2.97156360312343,-4.787));
#521=CARTESIAN_POINT('',(-7.16205541968889,-3.42303227314437,-3.40122478094102));
#522=CARTESIAN_POINT('',(-8.4,-4.53110983664448,0.));
#523=CARTESIAN_POINT('',(-8.4,8.4,0.));
#524=CARTESIAN_POINT('',(-8.4,4.53110983664446,0.));
#525=CARTESIAN_POINT('',(-8.77038364610998,4.86263825453106,1.01762070422243));
#526=CARTESIAN_POINT('',(-8.4,8.4,0.));
#527=CARTESIAN_POINT('',(-8.4,-8.4,0.));
#528=CARTESIAN_POINT('',(-4.53110983664448,-8.4,0.));
#529=CARTESIAN_POINT('',(4.53110983664449,-8.4,0.));
#530=CARTESIAN_POINT('',(-4.86263825453107,-8.77038364610998,1.01762070422243));
#531=CARTESIAN_POINT('',(-2.97156360312343,-6.65767448856769,-4.787));
#532=CARTESIAN_POINT('',(8.40000000000001,-6.65767448856769,-4.787));
#533=CARTESIAN_POINT('',(2.97156360312344,-6.65767448856769,-4.787));
#534=CARTESIAN_POINT('',(3.42303227314438,-7.16205541968888,-3.40122478094102));
#535=CARTESIAN_POINT('',(-8.4,-8.4,0.));
#536=CARTESIAN_POINT('',(-2.86013761057865,-5.59349671609178,-4.787));
#537=CARTESIAN_POINT('',(-3.63849695030068,-6.38859413011238,-4.787));
#538=CARTESIAN_POINT('',(-11.6780269528897,1.65093587247667,-4.787));
#539=CARTESIAN_POINT('',(-6.38859413011238,-3.63849695030069,-4.787));
#540=CARTESIAN_POINT('',(-5.59349671609178,-2.86013761057865,-4.787));
#541=CARTESIAN_POINT('',(-5.59349671609178,2.86013761057864,-4.787));
#542=CARTESIAN_POINT('',(-6.38859413011238,3.63849695030067,-4.787));
#543=CARTESIAN_POINT('',(1.65093587247668,11.6780269528897,-4.787));
#544=CARTESIAN_POINT('',(-3.63849695030067,6.38859413011238,-4.787));
#545=CARTESIAN_POINT('',(-2.86013761057863,5.59349671609178,-4.787));
#546=CARTESIAN_POINT('',(2.86013761057865,5.59349671609178,-4.787));
#547=CARTESIAN_POINT('',(3.63849695030068,6.38859413011238,-4.787));
#548=CARTESIAN_POINT('',(-1.65093587247668,11.6780269528897,-4.787));
#549=CARTESIAN_POINT('',(6.38859413011239,3.63849695030068,-4.787));
#550=CARTESIAN_POINT('',(5.59349671609179,2.86013761057864,-4.787));
#551=CARTESIAN_POINT('',(5.59349671609179,-2.86013761057865,-4.787));
#552=CARTESIAN_POINT('',(6.38859413011239,-3.63849695030069,-4.787));
#553=CARTESIAN_POINT('',(11.6780269528897,1.65093587247667,-4.787));
#554=CARTESIAN_POINT('',(3.63849695030069,-6.38859413011238,-4.787));
#555=CARTESIAN_POINT('',(2.86013761057866,-5.59349671609178,-4.787));
#556=CARTESIAN_POINT('',(8.4,8.4,-4.787));
#557=CARTESIAN_POINT('',(-13.3289628253664,-1.24344978758018E-014,0.));
#558=CARTESIAN_POINT('',(-8.13091964154469,-5.19804318382173,0.));
#559=CARTESIAN_POINT('',(-5.19804318382173,-8.13091964154469,0.));
#560=CARTESIAN_POINT('',(-4.4196838440997,-7.33582222752409,0.));
#561=CARTESIAN_POINT('',(4.4196838440997,-7.33582222752409,0.));
#562=CARTESIAN_POINT('',(5.19804318382174,-8.13091964154469,0.));
#563=CARTESIAN_POINT('',(5.32907051820075E-015,-13.3289628253664,0.));
#564=CARTESIAN_POINT('',(8.1309196415447,-5.19804318382173,0.));
#565=CARTESIAN_POINT('',(7.3358222275241,-4.4196838440997,0.));
#566=CARTESIAN_POINT('',(7.33582222752409,4.41968384409969,0.));
#567=CARTESIAN_POINT('',(8.1309196415447,5.19804318382173,0.));
#568=CARTESIAN_POINT('',(13.3289628253664,0.,0.));
#569=CARTESIAN_POINT('',(5.19804318382172,8.13091964154469,0.));
#570=CARTESIAN_POINT('',(4.41968384409969,7.33582222752409,0.));
#571=CARTESIAN_POINT('',(-4.41968384409968,7.33582222752409,0.));
#572=CARTESIAN_POINT('',(-5.19804318382172,8.13091964154469,0.));
#573=CARTESIAN_POINT('',(0.,13.3289628253664,0.));
#574=CARTESIAN_POINT('',(-8.13091964154469,5.19804318382172,0.));
#575=CARTESIAN_POINT('',(-7.33582222752409,4.41968384409968,0.));
#576=CARTESIAN_POINT('',(-7.33582222752409,-4.4196838440997,0.));
#577=CARTESIAN_POINT('',(8.4,8.4,0.));
#578=CARTESIAN_POINT('',(8.03969046092157,-5.11638443286247,-0.250650113757414));
#579=CARTESIAN_POINT('',(5.25024708356937,-8.18924185371867,0.160238961000644));
#580=CARTESIAN_POINT('',(5.32907051820075E-015,-13.3289628253664,0.));
#581=CARTESIAN_POINT('',(-5.11638443286247,-8.03969046092156,-0.250650113757412));
#582=CARTESIAN_POINT('',(-8.18924185371867,-5.25024708356936,0.160238961000644));
#583=CARTESIAN_POINT('',(-13.3289628253664,-1.24344978758018E-014,0.));
#584=CARTESIAN_POINT('',(-8.03969046092156,5.11638443286245,-0.250650113757411));
#585=CARTESIAN_POINT('',(-5.25024708356934,8.18924185371867,0.160238961000644));
#586=CARTESIAN_POINT('',(0.,13.3289628253664,0.));
#587=CARTESIAN_POINT('',(5.11638443286246,8.03969046092156,-0.250650113757412));
#588=CARTESIAN_POINT('',(8.18924185371867,5.25024708356935,0.160238961000644));
#589=CARTESIAN_POINT('',(13.3289628253664,0.,0.));
#590=CARTESIAN_POINT('',(-4.86263825453107,-7.83069102532407,1.3596408475481));
#591=CARTESIAN_POINT('',(-6.22236279890298,-3.42303227314437,-3.05920463761535));
#592=CARTESIAN_POINT('',(-7.83069102532407,4.86263825453106,1.3596408475481));
#593=CARTESIAN_POINT('',(-3.42303227314436,6.22236279890298,-3.05920463761535));
#594=CARTESIAN_POINT('',(4.86263825453107,7.83069102532407,1.3596408475481));
#595=CARTESIAN_POINT('',(6.22236279890298,3.42303227314437,-3.05920463761535));
#596=CARTESIAN_POINT('',(7.83069102532408,-4.86263825453107,1.3596408475481));
#597=CARTESIAN_POINT('',(3.42303227314438,-6.22236279890298,-3.05920463761535));
#598=MECHANICAL_DESIGN_GEOMETRIC_PRESENTATION_REPRESENTATION('',(#24),#599);
#599=(
GEOMETRIC_REPRESENTATION_CONTEXT(3)
GLOBAL_UNCERTAINTY_ASSIGNED_CONTEXT((#600))
GLOBAL_UNIT_ASSIGNED_CONTEXT((#606,#602,#601))
REPRESENTATION_CONTEXT('SEKR1604AFTN-ME16','TOP_LEVEL_ASSEMBLY_PART')
);
#600=UNCERTAINTY_MEASURE_WITH_UNIT(LENGTH_MEASURE(2.E-005),#606,
'DISTANCE_ACCURACY_VALUE','Maximum Tolerance applied to model');
#601=(
NAMED_UNIT(*)
SI_UNIT($,.STERADIAN.)
SOLID_ANGLE_UNIT()
);
#602=(
CONVERSION_BASED_UNIT('DEGREE',#604)
NAMED_UNIT(#603)
PLANE_ANGLE_UNIT()
);
#603=DIMENSIONAL_EXPONENTS(0.,0.,0.,0.,0.,0.,0.);
#604=PLANE_ANGLE_MEASURE_WITH_UNIT(PLANE_ANGLE_MEASURE(0.0174532925),#605);
#605=(
NAMED_UNIT(*)
PLANE_ANGLE_UNIT()
SI_UNIT($,.RADIAN.)
);
#606=(
LENGTH_UNIT()
NAMED_UNIT(*)
SI_UNIT(.MILLI.,.METRE.)
);
ENDSEC;
END-ISO-10303-21;
